Make your own free website on Tripod.com

Acoustic Fingerstyle Blues - Riff 1

(Alternate Dowload Page)


    Improvised fingerstyle acoustic blues riff
    using the open e-string. Using thumb and 
    fingers.

RE-CLICK THE BELOW LINKS TO DOWNLOAD
Sound Clip Title Play/Download WAV Clip Play/Download MP3 Clip
Fingerstyle Blues - Riff 1 WAV (104 KB) MP3 (45 KB)
	
     Key: E

    E                                                     A
E ||---------------------------------------------------0---------------------------|
B ||-----2/3---2---0---0h1--2--0h1---------3-2-0-3-3-3--3--------------------------|
G ||-----3/4---2---0---2----2--2-----------4-2-0-4-4-4---4--2--4--5p0--4p0--2p0----|
D ||-------------------------------2------------------------2--4--4p0--4p0--2p0----|
A ||-------------------------------1p0---------------------0--0--0----0---0--------|
E ||-0-0-----0---0---0-0---0--0---0---3-0-0-0-0-0-0-0--0---------------------------|


                       E
E ||---------------------------------------|
B ||---------------------/3-2-1-0----------|
G ||---2----2------------/4-3-2-0h1--------|
D ||---1p0--1p0---2-------------2----------|
A ||-0----0-----0h1p0----------------------|
E ||-----------------3^-0------0-----------|



Guitar Tab and Instruction - Home Page (free)


E-mail: sunspot6@hotmail.com


Downloading Help/Info


Disclaimer