Make your own free website on Tripod.com

Acoustic Fingerstyle Blues - Riff 10

(Alternate Dowload Page)


    Improvised fingerstyle acoustic blues riff
    using the open A-string, D-string and
    E-string. Using thumb and fingers.
   
    Use a constant bass counterpoint for 
    each group of treble notes.

RE-CLICK THE BELOW LINKS TO DOWNLOAD
Sound Clip Title Play/Download WAV Clip Play/Download MP3 Clip
Fingerstyle Blues - Riff 10 WAV (146 KB) MP3 (63 KB)
	
    Key: A

    A
E ||---------------------------------------------------|
B ||--8---7-5---7-8---7-5---2--8---7-5---0h2-0h2-2-2---|
G ||--8h9-7-5h6-7-8h9-7-5h6-2--8h9-7-5h6-0h2-0h2-1-0---|
D ||---------------------------------------------------|
A ||--constant bass------------------------------------|
E ||---------------------------------------------------|
 
    D                     A                   
E ||---------------------------------------------------|
B ||---9/10--8-7-5-3-2-1-------------------------------|
G ||--10/11--9-7-5-4-3-2---5/6-7--8/9--11-12--11-12----|
D ||-constant bass---------6/7-9-10/11-10-11--10-11----|
A ||-----------------------constant bass---------------|
E ||---------------------------------------------------|

    E               D             A
E ||-------------------------------------------------------|
B ||----------------6/7--6-7------------------------6--5---|
G ||--0h1-2-3/4-2---4/5--4-5--------------------4/5-7--6---|
D ||--0h2-4-5/6-4---constant bass--10-5-4-3----6----6--5---|
A ||-------------------------------0--4-5-6-6/7------------|
E ||-constant bass----------------------------------6--5---|



Guitar Tab and Instruction - Home Page (free)


E-mail: sunspot6@hotmail.com


Downloading Help/Info


Disclaimer