Make your own free website on Tripod.com

Acoustic Fingerstyle Blues - Riff 3

(Alternate Dowload Page)


    Improvised fingerstyle acoustic blues 
    riff using the open A-string with 
    thumb and fingers.

RE-CLICK THE BELOW LINKS TO DOWNLOAD
Sound Clip Title Play/Download WAV Clip Play/Download MP3 Clip
Fingerstyle Blues - Riff 3 WAV (102 KB) MP3 (44 KB)
	
     Key: E

    E                                                   
E ||---3p0---0----0-3p0-------0------|
B ||-------3----3^------3-3^---------|
G ||---------------------------------|
D ||---2----2--2--2-2----2--2--------|
A ||---------------------------------|
E ||--0---0---0-0--0---0--0-0-0------|


    A
E ||--------------------------------------------------------------------|
B ||---2----3---3----5-----7---7----8---8/--10------12-----14----14-----|
G ||-----0----0--------0-----0--------0--------0-------0-------0--------|
D ||---2--2--4---4---5--5---7---7---9--9----11--11--12--12---14----14---|
A ||--0-0---0--0----0-0----0--0----0-0--0--0--0----0--0----0----0-------|
E ||--------------------------------------------------------------------|


    E
E ||-------------|
B ||---0---------|
G ||---13--------|
D ||---14--------|
A ||-14----------|
E ||-------------|
   


Guitar Tab and Instruction - Home Page (free)


E-mail: sunspot6@hotmail.com


Downloading Help/Info


Disclaimer