Make your own free website on Tripod.com

Acoustic Fingerstyle Blues - Riff 4


    Improvised fingerstyle acoustic blues riff
    using the open e-string. Using thumb and 
    fingers. 

RE-CLICK THE BELOW LINKS TO DOWNLOAD
Sound Clip Title Play/Download WAV Clip Play/Download MP3 Clip
Fingerstyle Blues - Riff 4 WAV (80 KB) MP3 (34 KB)
	
    Key: E
                                                     
E ||----------------------3-0---0-------------------------------11/12-----|
B ||-------------8/9--7-5-2-0-3-------8/9-7-5-------------11/12-11/12-----|
G ||-------------8/9--7-6-----4---0h1-8/9-7-6-6/7-9-12/13-12/13-----------|
D ||--2---------------------------2-----------5/6-9-11/12-----------------|
A ||--1p0-----------------------------------------------------------------|
E ||-----3^-0-0-0----0-0-0-0-0-0-0---0---0-0-0---0-0-----0-----0----------|



E ||-------------------|
B ||-------------8/9\--|
G ||-------------8/9\--|
D ||--2----------------|
A ||--1p0--------------|
E ||-----3^-0-0--0-----|
   


Guitar Tab and Instruction - Home Page (free)


E-mail: sunspot6@hotmail.com


Downloading Help/Info


Disclaimer