Make your own free website on Tripod.com

Albert Lee Riff 1

(Alternate Dowload Page)


    Mainly using the pick and middle finger 
    of the right hand. Using the 3rd finger 
    of the fretting hand to bar across the 2 
    strings at the 5th fret.

RE-CLICK THE BELOW LINKS TO DOWNLOAD
Sound Clip Title Play/Download WAV Clip Play/Download MP3 Clip
Albert Lee Riff 1 WAV (47 KB) MP3 (20 KB)
	
   Riff 1   Key: G

A ||-----------P---------------P---------------P------------------|
B ||---H------/\------H-------/\-------H------/\-------P----------|
G ||--/\-0---3-0---0-/\--5---3-0---0--/\-0---3-0---0--/\----H-----|
D ||-3-5---x-----5---3-5---x-----5---3-5---x-----5----3-0--/\-----|
A ||------------------------------------------------------1-2-----|
E ||----------------------------------------------------------3---|



A ||-----------P---------------P-----P----------------------------|
B ||---H------/\------H-------/\----/-\-----P-------H--P----------|
G ||--/\-0---3-0---0-/\--5---3-0---3-2-0-0-/\---H--/\-/\-0--------|
D ||-3-5---x-----5---3-5---x-----5------3-2-0--/-\-0-2-0-2/5------|
A ||------------------------------------------0-1-2-------slide---|
E ||--------------------------------------------------------------|
   


Guitar Tab and Instruction - Home Page (free)


E-mail: sunspot6@hotmail.com


Downloading Help/Info


Disclaimer