Make your own free website on Tripod.com

Albert Lee Riff 2

(Alternate Dowload Page)


    Mainly using the pick and middle finger of the right hand.
    Using the 3rd finger of the fretting hand to bar across the 2 
    strings at the 5th fret. Tune the low E to D.

RE-CLICK THE BELOW LINKS TO DOWNLOAD
Sound Clip Title Play/Download WAV Clip Play/Download MP3 Clip
Albert Lee Riff 2 WAV (72 KB) MP3 (31 KB)
	
    Riff 2   Key: D - drop E to D on 6th string    
E ||------------------------------------------------------------|
B ||-----------P---------------P---------------P----------------|
G ||---H------/\------H-------/\-------H------/\-------P--------|
D ||--/\-0---3-0---0-/\--5---3-0---0--/\-0---3-0---0--/\--------|
A ||-3-5---x-----5---3-5---x-----5---3-5---x-----5----3-0--half-|
E ||------------------------------------------------------3^-0--|

 

    Riff 2   Key: D - drop E to D on 6th string    
E ||------------------------------------------------------------|
B ||-----------P---------------P---------------P----------------|
G ||---H------/\------H-------/\-------H------/\-------P--------|
D ||--/\-0---3-0---0-/\--5---3-0---0--/\-0---3-0---0--/\--------|
A ||-3-5---x-----5---3-5---x-----5---3-5---x-----5----3-0--half-|
E ||------------------------------------------------------3^-0--|



    Riff 2   Key: D - drop E to D on 6th string    
E ||----------------------------------------------|
B ||----------------------H (mid finger)----------|
G ||--7\5---5------------/\-----------------------|
D ||------7---7--5\3----3-4-------------H--H------|
A ||------------------5-----5-3---------/\/\------|
E ||-----------------------------5-4-3-0-2-3-0----|
   


Guitar Tab and Instruction - Home Page (free)


E-mail: sunspot6@hotmail.com


Downloading Help/Info


Disclaimer