Make your own free website on Tripod.com

Brad Paisley - Riff 1

(Alternate Dowload Page)


    Mainly using the pick and middle finger 
    of the right hand. Added a few extra notes
    on the 2nd half sections/end

RE-CLICK THE BELOW LINKS TO DOWNLOAD
Sound Clip Title Play/Download WAV Clip Play/Download MP3/ZIP Clip
Brad Paisley - Riff 1 WAV (57 KB) MP3 (28 KB)
	
   Riff 1   Key: G/C

A ||-3p0-0-0--------------------------------------------------------|
B ||----6-3--0-0----------------------------------------------------|
G ||--------5-3--0-0-0---5p0-3p0-5p0-3p0-3p0------------------------|
D ||------------5-3-5-----------------------------------------------|
A ||------------------5/7---5---7---5---5---------------------------|
E ||----------------------------------------------------------------|



A ||-3p0-0-0--------------------------------------------------------|
B ||----6-3--0-0----------------------------------------------------|
G ||--------5-3--0-0-0---5p0-3p0-2p0-1p0-0------0---0---0-----------|
D ||------------5-3-5------------------------4h5-3h4-2h3-0h1h20-----|
A ||------------------5/7---5---3---2---1----------------------3----|
E ||----------------------------------------------------------------|
   


Guitar Tab and Instruction - Home Page (free)


E-mail: sunspot6@hotmail.com


Downloading Help/Info


Disclaimer