Make your own free website on Tripod.com

Breathless - The Corrs

(Alternate Dowload Page)


    Intro riff played with my double bender telecaster.

RE-CLICK THE BELOW LINKS TO DOWNLOAD
Sound Clip Title Play/Download WAV Clip Play/Download MP3 Clip
Breathless - Intro Riff WAV (108 KB) MP3 (46 KB)
	
     B	 repeat a number of times    - Bar 1st finger across 4th fret to the 4th string (D)                                             
E ||---------------------|----------------------------------------------------------|
B ||-7--5--4---7--5--4---|----------------------------------------------------------|
G ||--4--4--4---4--4--4--|----------------------------------------------------------|
D ||---4-----4---4-----4-|----------------------------------------------------------|
A ||---------------------|----------------------------------------------------------|
E ||---------------------|----------------------------------------------------------|

      B  / / / / F# / / / / C#m  / / / / G#m / / F# / /      Repeat for verse   
							     damp strings with palm near guitar bridge
E ||--2----------2-----------4------------4-------2---------------------------------|
B ||--4----------2-----------5------------4-------2---------------------------------|
G ||--4----------3-----------6------------4-------3---------------------------------|
D ||--4----------4-----------6------------6-------4---------------------------------|
A ||--2----------4-----------4------------6-------4---------------------------------|
E ||-------------2-----------x------------4-------2---------------------------------|


     next part: guitar 1

    E+9/ / F# / / G#m / / / / E / / F# / / Bsus/ / / / E+9/ / F# / / G#m / / / /E+9/ / / / F#+9 / / / /
 (optional)	
E ||(2)----0-------0----------0-----0------0---0---0---------------------------(2)--------(4)-------|
B ||-0-----0-------0----------0-----0------0---0---0----------------------------0----------0--------|
G ||-1-----3-------4----------1-----3------8--(9)--8-----same---chords----------1----------3--------|
D ||-2-----4-------6----------2-----4------9---9---9----------------------------2----------4--------|
A ||-2-----4-------6----------2-----4------9---9---9----------------------------2----------4--------|
E ||-0-----0-------0----------0-----0------0---0---0----------------------------0-------------------|

    same part: guitar 2

E ||------------------------------------------------------------------------------------------------|
B ||---0-0-0-0-0-0-------------------------------------------------------------------------0-0-0-0--|
G ||---4-4-3-3-3-3--continue thru whole part with the above chords (pausing and muting)----3-3-3-3--|
D ||-----------4-4-------------------------------------------------------------------------4-4-4-4--|
A ||------------------------------------------------------------------------------------------------|
E ||------------------------------------------------------------------------------------------------|


   Chorus:

      E / / / / A / / / / B / / / /
				repeat 4 times, then stop on the B (damp with palm of strumming hand on the lower strings)
E ||--0---------0---------2-------------------------------------------------------|
B ||--0---------2---------4-------------------------------------------------------|
G ||--1---------2---------4-------------------------------------------------------|
D ||--2---------2---------4-------------------------------------------------------|
A ||--2---------0---------2-------------------------------------------------------|
E ||--0---------------------------------------------------------------------------|
   


Guitar Tab and Instruction - Home Page (free)


E-mail: sunspot6@hotmail.com


Downloading Help/Info


Disclaimer