Make your own free website on Tripod.com

Brent Mason Riff 5

(Alternate Dowload Page)


    Use your pick and the middle and ring fingers of
    the right hand. Bar 1st finger across 2nd fret
    on the B and G strings for the pull offs. 

RE-CLICK THE BELOW LINKS TO DOWNLOAD
Sound Clip Title Play/Download WAV Clip Play/Download MP3 Clip
Brent Mason Riff 5 WAV (77 KB) MP3 (33 KB)
	
    Riff 5   Key: A - Double-Stops


         p     p     p     p     p      p     p     p     p     p     p     p     p     p     p       
         p     p     p	   p     p      p     p     p     p     p     p     p     p     p     p       
        / \   / \   / \   / \   / \    / \   / \   / \   / \   / \   / \   / \   / \   / \   / \    
E ||---------------------------------------------------------------------------------------------|
B ||----2-0---2-0---2-0---2-0---2-0----1-0---1-0---1-0---1-0---1-0---0-0---0-0---0-0---0-0---0-0-|
G ||----2-0---2-0---2-0---2-0---2-0----2-0---2-0---2-0---2-0---2-0---2-0---2-0---2-0---2-0---2-0-|
D ||2/5-----5-----5-----5-----5------4-----4-----4-----4-----4-----3-----3-----3-----3-----3-----|
A ||---------------------------------------------------------------------------------------------|
E ||---------------------------------------------------------------------------------------------|


        p     p     p     p     p      p     
        p     p     p     p     p      p        
       / \   / \   / \   / \   / \    / \      
E ||--------------------------------|---------------------------|
B ||--------------------------------|-2-0--------P--------------|
G ||---2-0---2-0---2-0---5-0---2-0--|-2-0--0-0--/-\---P---------|
D ||---2-0---2-0---2-0---5-0---2-0--|-----2-2--2-1-0-/-\--------|
A ||-0-----0-----0-----0-----0------|----------------3^-0---0---|
E ||--------------------------------|---------------------3^----|
   


Guitar Tab and Instruction - Home Page (free)


E-mail: sunspot6@hotmail.com


Downloading Help/Info


Disclaimer