Make your own free website on Tripod.com

Brent Mason - Hot Wired Riff 1

(Alternate Dowload Page)


    Nice double stop riff
    from the Brent Mason 
    song:  Hot Wired.
    Eddie Van Halen occasionally
    uses the same type of pull offs
    and double stops in Van Halen.

RE-CLICK THE BELOW LINKS TO DOWNLOAD
Sound Clip Title Play/Download WAV Clip Play/Download MP3 Clip
Brent Mason - Hot Wired Riff 1 WAV (64 KB) MP3 (27 KB)
	
    Riff 1   Key: A

              p    p      p    p      p      p    p
E ||----------p----p------p----p------p------p----p----------------------|
B ||---------/\---/\-----/\----/\-----/\----/\---/\----------------------|
G ||--------2-0---5-0----7-0---6-0---5-0---2-0---5-0---5--4------0--h----|
D ||--------2-0---5-0----7-0---5-0---4-0---2-0---5-0---5--4--1/2---/\----|
A ||------0-----0------0-----0-----0-----0-----0-----0-------------3-4---|
E ||--0-3^---------------------------------------------------------------|

         p     p    G  D   A
E ||-----p-----p---------------------------------------------------------|
B ||----/\----/\-----------3---------------------------------------------|
G ||----2-0---5-0---0--2---2---------------------------------------------|
D ||----2-0---5-0---0--0---2---------------------------------------------|
A ||--0-----0--------------0---------------------------------------------|
E ||----------------3----------------------------------------------------|
   


Guitar Tab and Instruction - Home Page (free)


E-mail: sunspot6@hotmail.com


Downloading Help/Info


Disclaimer