Make your own free website on Tripod.com

Chet Atkins Riff 1

(Alternate Dowload Page)


    Nice chord progression ending in G Major.

RE-CLICK THE BELOW LINKS TO DOWNLOAD
Sound Clip Title Play/Download WAV Clip Play/Download MP3 Clip
Chet Atkins Riff 1 WAV (77 KB) MP3 (33 KB)
	
    Key: G  

E ||----------0------------0-----------|----------0----------0---------|
B ||------12---12------12----12-----12-|------12---12----12---12----12-|
G ||----13-----------13-----------13---|----12---------12---------12---|
D ||--12----12-----12----12-----12-----|--11----11---11----11---11-----|
A ||-----------------------------------|-------------------------------|
E ||-----------------------------------|-------------------------------|

E ||----------0-----------0-----------------------|
B ||------10---10-----10---10----10---------------|
G ||----12----------12---------12-----------------|
D ||--10----10----10----10---10-------------------|
A ||----------------------------------------------|
E ||----------------------------------------------|
   


Guitar Tab and Instruction - Home Page (free)


E-mail: sunspot6@hotmail.com


Downloading Help/Info


Disclaimer