Make your own free website on Tripod.com

Chet Atkins Riff 2

(Alternate Dowload Page)


    A fun style to play.  
    This is a Chet Atkins  
    style that leans toward the
    Merle Travis and Merle Watson 
    type approach.
    (Mississippi John Hurt style)

RE-CLICK THE BELOW LINKS TO DOWNLOAD
Sound Clip Title Play/Download WAV Clip Play/Download MP3 Clip
Chet Atkins Riff 2 WAV (140 KB) MP3 (60 KB)
	
    Key: E  
               
    E 			           A
E ||------0--------0--------0--------------4-------------------0---------------|
B ||-----------8^-------8^---------7-------------7-----8------------6----------|
G ||-----------------------------------6-------------------6-----------6-------|
D ||------6------6----6-----6------7-----7----7----7---7-----7----7------7-----|
A ||-2/7-------------------------0---0-----0-----0---0---0-----0------0--------|
E ||----0----0-----0----0------------------------------------------------------|


    E                                     B7#9
E ||----0-------------------h-----0------------------------0-----------h---12----|
B ||--------2---2---0------/\--2------------3-----2---0----0----------/\---12----|
G ||----------------------0-1------------------2-----------1---4-3-2-0-1---11----|
D ||----2-----2---2---2---2-----2---2-------1---1---1---1--2---------------11----|
A ||-----------------------------------0-1-2--2---2---2----2--5--4-3-2-----11----|
E ||--0---0-----0---0---0-----0---0------------------------0---------------0-----|
   


Guitar Tab and Instruction - Home Page (free)


E-mail: sunspot6@hotmail.com


Downloading Help/Info


Disclaimer