Make your own free website on Tripod.com

Chet Atkins Riff 3

(Alternate Dowload Page)


    This is the intro to Foggy 
    Mountain Breakdown by Earl Scruggs.
    This lick is supposed to make the 
    telecaster sound like a banjo.
    The pick should down stroke mainly 
    on bass strings throughout the song.  
    Not really a Chet Akins riff but 
    more like Merle Watson and Merle Travis.  

RE-CLICK THE BELOW LINKS TO DOWNLOAD
Sound Clip Title Play/Download WAV Clip Play/Download MP3 Clip
Chet Atkins Riff 3 WAV (129 KB) MP3 (55 KB)
	
    Key: G  
   
E ||-3-3-3------3---------3--------3-----3-------------0--------|
B ||-0-1-2h3-----3---2h3---3---2h3--3----3-------0--------0-----|
G ||-----0---0----0--0--0---0--0--0--2-0----------0-------------|
D ||---------------------------------------0-1---2----2--2--2---|
A ||------------------------------------------------------------|
E ||-------------------------------------------0---0---0--0-----|
 

E ||-----------------|-----------------------|
B ||---0------0---3--|----0-------0-------0--|
G ||-------3----3----|--------3^-------3^----|
D ||---5----5--5---5-|----2-----2---2-----2--|
A ||-----------------|-----------------------|
E ||-3---3---3---3---|--0---0-----0----0-----|

                                                              whole bend
E ||-----------------|-----------------------|---------------------|
B ||---0------0---3--|----3------3-------3---|-------5--------3----|
G ||-------3----3----|-------5-------5-------|---3h4----3h4---2^---|
D ||---5----5--5---5-|----4----4---4------4--|---5----5-------3----|
A ||-----------------|--5---5----5-----5-----|---------------------|
E ||-3---3---3---3---|-----------------------|--3---3--3-----------|
   


Guitar Tab and Instruction - Home Page (free)


E-mail: sunspot6@hotmail.com


Downloading Help/Info


Disclaimer