Make your own free website on Tripod.com

Chet Atkins Riff 4

(Alternate Dowload Page)


    Freight Train (bluegrass standard) 
    Kind of a Chet Atkins, Merle Watson,
    Merle Travis style. Pick the alternating 
    bass notes with your thumb or flat pick.

RE-CLICK THE BELOW LINKS TO DOWNLOAD
Sound Clip Title Play/Download WAV Clip Play/Download MP3 Clip
Chet Atkins Riff 4 WAV (133 KB) MP3 (57 KB)
	
    Key: C  

    C                     G
E ||------3---0------------------3---1---------3--1---0-------------|
B ||--------------3---0------0----------------------------3---------|
G ||----------------------------------------------------------------|
D ||--------2---2---2---2----0-----0---0---0-----0--0---0---0-------|
A ||--0-2-3---3---3---3---------------------------------------------|
E ||-3---------------------3---3-----3---3-----3--3---3---3---------|
 
    C                  E                     F           D
E ||----------0----------0---1-----0--------------------------------|
B ||---1---3---------------------------3------------1-----3---------|
G ||-------------------------------------------1h-------------5-----|
D ||---2----2---2--2-----2----2------2---2-----3-----3----4-----4---|
A ||-3---3----3--3---------------------------------------5--5-------|
E ||-------------------0---0----0--0---0-----1----1-----------------|

    G7         F         C          C9                                        
E ||---------------------------------3-------|
B ||----8--------6---------1----1----3^------|
G ||-------10----8-----0------0------3^------|
D ||----9----9---7-----0---2---2-----3-------|
A ||-10--10-----8-----6--3---3--3----2-------|
E ||-----------------------------------------|
   


Guitar Tab and Instruction - Home Page (free)


E-mail: sunspot6@hotmail.com


Downloading Help/Info


Disclaimer