Make your own free website on Tripod.com

Chet Atkins Riff 7

(Alternate Dowload Page)


    This song is called: 
    Windy and Warm  
    Use hybrid type picking
    with a flatpick (Merle Watson/
    Doc Watson style - Doc Watson
    uses a 2 finger technique:
    thumb and index. 

RE-CLICK THE BELOW LINKS TO DOWNLOAD
Sound Clip Title Play/Download WAV Clip Play/Download MP3 Clip
Chet Atkins Riff 7 WAV (110 KB) MP3 (47 KB)
	
m=middle finger
r=ring finger
p=pinky finger

d=down with pick
u=up with pick


    Key: Am                              E
                          h p              h
E ||-----------------0---/\/\-------------/\--3-----------|
B ||-------1-3p1--4-----0-1-0-------1-3p-1-3/5-5\3-1------|
G ||-------2------------------2p0h2-----------------2-----|
D ||----h--2----2-----2-------2-----2---2-----------------|
A ||---/\-0--0-----0----0---------0---0-------------------|
E ||--0-3-------------------------------------------------|

     Am                              F    G   Am
                          h p
E ||-----------------0---/\/\--------------------------|
B ||-------1-3p1--4-----0-1-0----------2---4---1-------|
G ||-------2------------------2p0h2----3---5-----2-----|
D ||----h--2----2-----2-------2--------3---5---2--2----|
A ||---/\-0--0-----0----0---------0-----------0-0------|
E ||--0-3----------------------------1---3-------------|
   


Guitar Tab and Instruction - Home Page (free)


E-mail: sunspot6@hotmail.com


Downloading Help/Info


Disclaimer