Make your own free website on Tripod.com

Chicken Pickin' Riff 10

(Alternate Dowload Page)


   Another riff I put together.
   You can single note finger roll 
   this riff for more of a Gretch 
   type tone. Then you can bar the
   first part with your 1st finger
   and it will be moveable to any 
   fret.  Example, D would be 7th 
   with 1st finger.

RE-CLICK THE BELOW LINKS TO DOWNLOAD
Sound Clip Title Play/Download WAV Clip Play/Download MP3/ZIP Clip
Chicken Pickin' Riff 10 WAV (120 KB) MP3 (60 KB)
	
    key: G

     3x           3x
E ||-----3--3----|-------|------------------------------------------------------------|
B ||-----0--0----|---0---|------------------------------------------------------------|
G ||--0h3--3mute-|---3p--|------------------------------------------------------------|
D ||-------------|--2-p--|------------------------------------------------------------|
A ||-------------|-------|------------------------------------------------------------|
E ||-------------|-------|------------------------------------------------------------|

    3x		3x         3x
E ||----------|-----------|------------|------------------|---------------------------|
B ||---12p0---|---11p0----|---10p0-----|------------------|--7h8p7-10^--bend 2 frets--|
G ||-----12p0-|------12p0-|------12p0--|--back to 1st riff|--7h9p7-10^----------------|
D ||-15-------|-14--------|-13---------|------------------|---------------------------|
A ||----------|-----------|------------|------------------|---------------------------|
E ||----------|-----------|------------|------------------|---------------------------|
   


Guitar Tab and Instruction - Home Page (free)


E-mail: sunspot6@hotmail.com


Downloading Help/Info


Disclaimer