Make your own free website on Tripod.com

Chicken Pickin' Riff 9

(Alternate Dowload Page)


   Here is a riff I assembled using
   various phrasings and double-stops. 

RE-CLICK THE BELOW LINKS TO DOWNLOAD
Sound Clip Title Play/Download WAV Clip Play/Download MP3/ZIP Clip
Chicken Pickin' Riff 9 WAV (62 KB) MP3 (31 KB)
	
    key: G

E ||:--6/7-7\5-5---2/3-0----------------p------------------------------------|
B ||:--7/8-8\6-6---2/3-0-2/3-0---h----/--\-------p---------------------------|
G ||:-----9---7----------3/4-0--/\-0-3-2-0---0--/-\----------------/h\-/p\---|
D ||:--------------------------0-3^--------3^--2---0--/h\---/h\---0---2--0---|
A ||:------------------------------------------------1--2--0-1-2-------------|
E ||:-----------------------------------------------------3------------------|
   
E ||:----------------------------7\------------------------------------------|
B ||:----------------------------8\------------------------------------------|
G ||:-------0-3p0-0-----------7h9--------------------------------------------|
D ||:--0h2/5-5---5----0--5-7/9-----------------------------------------------|
A ||:----------------2--7----------------------------------------------------|
E ||:---------------3--------------------------------------------------------|



Guitar Tab and Instruction - Home Page (free)


E-mail: sunspot6@hotmail.com


Downloading Help/Info


Disclaimer