Make your own free website on Tripod.com

Country Chops Riff 1

(Alternate Dowload Page)


    Here's a riff I pieced together
    using various phrases and random
    notes.

RE-CLICK THE BELOW LINKS TO DOWNLOAD
Sound Clip Title Play/Download WAV Clip Play/Download MP3 Clip
Country Chops Riff 1 WAV (88 KB) MP3 (38 KB)
	
    Key: A
  
E ||-----------------h---7---7/9-----12--9-------------------------------------|
B ||-----------h----/\---8---8/10--12^-12-12p10--12p10--10\8---8---------------|
G ||----h-----/-\--5-7/9---9-------------------11-----11-----9-----------------|
D ||---/-\---5-6-7-------------------------------------------------------------|
A ||--5-6-7--------------------------------------------------------------------|
E ||---------------------------------------------------------------------------|


                                                                p
E ||-----15--12-------------------------17--14-----------------/\--------------|
B ||--15^--15--15p13--15p13--13\10--10--17^-17--17p15--17p15--15-0-------------|
G ||----------------14-----14-----12-----------------16-----16-----------------|
D ||---------------------------------------------------------------------------|
A ||---------------------------------------------------------------------------|
E ||---------------------------------------------------------------------------|

        p     p     p     p    p    p     p    p    p    p
E ||---/\----/\----/\----/\---/\---/\----/\---/\---/\---/\---------------------|
B ||--14-0--13-0--12-0--10-0--9-0--8-0--7-0--5-0--4-0--3-0--2------------------|
G ||-14----13----12----11----10---9----7----6----5----4----2-------------------|
D ||---------------------------------------------------------------------------|
A ||---------------------------------------------------------------------------|
E ||---------------------------------------------------------------------------|
   


Guitar Tab and Instruction - Home Page (free)


E-mail: sunspot6@hotmail.com


Downloading Help/Info


Disclaimer