Make your own free website on Tripod.com

Foggy Bog

(Alternate Dowload Page)


    Here's an instrumental tune I made up 
    called Foggy Bog.
    Playing the classical with overdubbed 
    harmony chords.

RE-CLICK THE BELOW LINKS TO DOWNLOAD
Sound Clip Title Play/Download WAV Clip Play/Download MP3 Clip
Foggy Bog WAV (506 KB) stereo MP3 (253 KB) mono
	
     Foggy Bog   Key: G
        

     G  D7 Em#9 B7#5 B7b9  Em6   F
   
E ||-3-----3-----2----1----0-----5---------------------------------|
B ||-3--3--0-----0----0----0-----3---------------------------------|
G ||-0--5--0-----0----0----0-----5---------------------------------|
D ||-0--4--2-----1----0----2-----3---------------------------------|
A ||-2--5--2-----2----2----4-----3---------------------------------|
E ||-3-----0-------------------------------------------------------|
	   '	 '    '    '
	   '     '    '    '
harmony:   '     '    '    '
 	   '     '    '    '
	  Em#9 B7#5 B7b9  Em6       Cm   Am     F       G

E ||-------3(5)---------------------11----8------------------------|
B ||-------5----7(8)-6(8)--5(6)-----13----10----8-(10)--8----------|
G ||-------4----8----7-----6--------12----9-----10------7----------|
D ||------------7----7-----5--------13----10----10------9----------|
A ||---------------------------------------------------------------|
E ||---------------------------------------------------------------|
 


VER I
||: D / / / / G / / / / :||

Em#9 / / / / B7#5 / / / / B7b9 / / / /  Em6 / / / / 
C / / / / Cm6 / / / / G / / / /

||: D / / / / G / / / / :||


BRIDGE:
Em / / D / / G / / C / / E7 / / Am / / Am/g
F  / / / / C / / / / G  / / / / 


VerI

END

||: D / / / / G / / / / :||
    D / / / / G / / / /




Guitar Tab and Instruction - Home Page (free)


E-mail: sunspot6@hotmail.com


Downloading Help/Info


Disclaimer