Make your own free website on Tripod.com

Grapefruit, Juicyfruit (Jimmy Buffett)

(Alternate Dowload Page)


    Fingerpicking Buffett song on tele with
    no picks
    
RE-CLICK THE BELOW LINKS TO DOWNLOAD
Sound Clip Title Play/Download WAV Clip Play/Download MP3/ZIP Clip
Grapefruit, Juicyfruit WAV (285 KB) MP3 (143 KB)
	
    Key: C
      C              G                         C   C7
E ||-----------------2-3------------------------------------------------|
B ||--4-5----6-5-4--------0h1-0-------------------1-5--5--5--5----------|
G ||-------0-------0---------------------------0--0-3^-3--3^-3----------|
D ||----------------------0h2-0-----------0h2h3----------5-----5--------|
A ||--2-3-3-3-3-3-3------------------0h1h2-------3----------------------|
E ||-----------------2-3--------0h2h3-----------------------------------|

    Dm7     G   Cmaj7
E ||---1--1-------------------------------------------------------------|
B ||---1--1---0--0-----------0------------------------------------------|
G ||---2-2---0-0--0--------0--0------repeat-----------------------------|
D ||--0-0---0-------0-0h2-2---------------------------------------------|
A ||-------------3-3-3---3--3-------------------------------------------|
E ||-------3------------------------------------------------------------|
    
    D7        G					                C9maj7
E ||------------------------------------------------------------3-------|
B ||-----3----3-0-----3p0----0----------------------------------3-------|
G ||---5--5-------2-0-----3^------------------------------------4-------|
D ||--4----------------------------------------0h2h3p2h3p2h3p2--2-------|
A ||-5--5--------------------------------0h1h2------------------3-------|
E ||----------3-3-3-3-3---3--3-----0h2h3------------------------3-------|



Guitar Tab and Instruction - Home Page (free)


E-mail: sunspot6@hotmail.com


Downloading Help/Info


Disclaimer