Make your own free website on Tripod.com

Keith Urban - Riff 1

(Alternate Dowload Page)


    Use fingers and no pick to rake across the 
    strings.  Use fingers to mute and double-
    stop throughout riff.


RE-CLICK THE BELOW LINKS TO DOWNLOAD
Sound Clip Title Play/Download WAV Clip Play/Download MP3 Clip
Keith Urban - Riff 1 WAV (217 KB) MP3 (93 KB)
	
     Key: A
                 
E ||-------------------------h---------------------------------|
B ||-----------------------5/\---------------------------------|
G ||-----2-2-2-2--(repeat)-5--6--(repeat)---4^r-0--------------|
D ||-----2-4-2-4-----------5----------------4^r-0--------------|
A ||----0---0-0-------------------------------------0----------|
E ||--3^------------------------------------------3^-----------|


E ||-----------------------------------------------------------|
B ||---8-------------------------8-7--5------------------------|
G ||---7^whole bend hold release-7-7--5h6--2-------------------|
D ||--------------------------------7------2-------------------|
A ||-----------------------------------------------------------|
E ||-----------------------------------------------------------|
 


Guitar Tab and Instruction - Home Page (free)


E-mail: sunspot6@hotmail.com


Downloading Help/Info


Disclaimer