Make your own free website on Tripod.com

Keith Urban - Riff 2

(Alternate Dowload Page)


    This is in the Keith Urban style of playing
    rhythm/lead at the same time.  Keep a constant
    right hand rhythm pattern throughout riff. Very
    useful technique especially in a small 3 or 
    4 piece band.  I recorded 5 files with various 
    levels of effects (compressor, tube screamer,
    crybaby wah-wah, etc..) 

RE-CLICK THE BELOW LINKS TO DOWNLOAD
Sound Clip Title Play/Download WAV Clip Play/Download MP3 Clip
Uncompressed WAV (186 KB) MP3 (80 KB)
Compressor WAV (186 KB) MP3 (80 KB)
Compressor+Wah-Wah WAV (185 KB) MP3 (80 KB)
Compressor+Distortion WAV (188 KB) MP3 (81 KB)
Compressor+Distortion+Wah WAV (189 KB) MP3 (81 KB)
	
    Key: A
       
     A     D                   E    A      D     
    
E ||------------p-----------------0----17---10----------------------------------|
B ||--2----3----/\----------------0-2--17---10^r10--7----------------7----------|
G ||--2----2-4^r-2---repeat 3x--4/6-2--14-------9^r-7h9p7------------7----------|
D ||--2--2-0------4-------------2---2--14-----------7----h9p7--4-5-7-7--h9p7----|
A ||--0-------------------------2---0--0---------------------9\5-7-9-8h9----9---|
E ||----------------------------0-----------------------------------------------|

    A					     E                    A

E ||--0---------0-0-0--5------0--------------------------0---0-0--0--------------|
B ||--2-3p2-3/5-5-3-2--5^r5---2--------------9-10^hold r-9---0-0--2--------------|
G ||--2-4p2-4/6-6-4-2-----4^r-2-h4p2---------9-11^hold r-9---4/6--2--------------|
D ||--2-------------2---------2-----h4p2-----9-----------9---2----2--------------|
A ||--0-------------0-------------------4p0--x---------------2----0--------------|
E ||-----------------------------------------0---------------0-------------------|
 


Guitar Tab and Instruction - Home Page (free)


E-mail: sunspot6@hotmail.com


Downloading Help/Info


Disclaimer