Make your own free website on Tripod.com

Michael Tomlinson - Safe At Home

(Alternate Dowload Page)


    Chords to Safe At Home by Michael Tomlinson
    from the CD:  Face Up In The Rain.

RE-CLICK THE BELOW LINKS TO DOWNLOAD
Sound Clip Title Play/Download WAV Clip Play/Download MP3 Clip
Safe At Home - Intro WAV (73 KB) MP3 (31 KB)
	
   Intro:  ||: A / Asus / A / / E7sus /  E7sus+6 / E7sus / / :||
           ||: A / Asus / A / / E7sus /  E7sus+6 / E7sus / / :||


   Ver 1:  ||  A / Asus / A / / E7sus /  E7sus+6 / E7 / /  || 3x
               Bm / / / / Esus+7 / / E

   Ver 2

 
  Chorus:   F#m / / / / E7sus+f#bass / / / / Bm / / / / Esus / / E / /
            F#m / / / / E7sus+f#bass / / / / Bm / / / / Esus / / E / /

            F#m / / / / E7sus+f#bass / / / / Bm / / / / Esus / / E / /
            F#m / / / / E7sus+f#bass / / / / Bm / / / / Esus+7 / / / /


            ||: A / Asus / A / / E7sus /  E7sus+6 / E7sus / / :||
            ||: A / Asus / A / / E7sus /  E7sus+6 / E7sus / / :||


   Ver 3 & 4

    Solo:   ||:Bm / / / / | / / / / F#m7 / / / / | / / / /
               Gmaj7 / / / / | / / / / E7sus(II) / / / / | / / / / :||


   Chorus    

   Ver 5 & 6

   Chorus


     Chords used in Safe At Home:

     A   Asus  E7sus  E7sus+6  Bm  Esus+7  E    F#m   E7sus+f#bass  Esus
E ||-0----0-----0-------0-------0----0-----0-----0------0------------0--------|
B ||-2----3-----0-------2-------3----3-----0-----0------0------------0--------|
G ||-2----2-----2-------2-------4----2-----1-----2------2------------2--------|
D ||-2----2-----0-------0-------4----2-----2-----4------0------------2--------|
A ||-0----0-----2-------2-------0----2-----2-----4------2------------2--------|
E ||------------0-------0------------0-----0------------2------------0--------|

  
    Bridge/Solo Chords:

     F#m7  Gmaj7  E7sus(II)
E ||--2-----2-----5------------|
B ||--5-----3-----3------------|
G ||--2-----4-----4------------|
D ||--2-----5-----2------------|
A ||--4-----------2------------|
E ||--2-----------0------------|
   


Guitar Tab and Instruction - Home Page (free)


E-mail: sunspot6@hotmail.com


Downloading Help/Info


Disclaimer