Make your own free website on Tripod.com

Never Take The Place Of You - Al Anderson

(Alternate Dowload Page)


    This is a song on the CD: Closer to the flame
    by Dave Edmunds.  Never Take The Place of 
    You - was written by Al Anderson (formerly of
    the group NRBQ)

    Mostly finger-style on the classical guitar.
    I've overdubbed a second track on this one.

RE-CLICK THE BELOW LINKS TO DOWNLOAD
Sound Clip Title Play/Download WAV Clip Play/Download MP3 Clip
Never Take The Place Of You WAV (428 KB) MP3 (214 KB)
	
    Key: A (CAPO I)

	   Amaj6 Gmaj6/Ebass D  F#m^   F#m7  F#m7* Bm Bm#7 Bm7  E7  A7sus  A7
E ||-------2-----0-----------2---0-----2-------2----2-----------0---0------0----------|
B ||-------2-----0-----------3---0-----5-------2----3--3---3----0---3------2----------|
G ||-------2-----0-----------2---2-----2-------2----4--3---2----1---0------0----------|
D ||---h---4-----2-----------0---4-----2-------4----4--4---4----0---2------2----------|
A ||--/-\--0-----x---------------4-----4-------x----2---------------0------0----------|
E ||-2-3-4-------0---------------------2-------2--------------------------------------| 


      Gmaj7 D+9  Dmaj6    A   C-5  C   Gmaj7*
E ||--2-0----0----7\5-----0--------------------------------------|
B ||--3-0----3----7\5-----2----7---5----3------------------------|
G ||--4------2----7-------2----5---5----4------------------------|
D ||--5-----------0-------2----5---5----4------------------------|
A ||--x-------------------0-------------x------------------------|
E ||--3---------------------------------3------------------------| 


Amaj6 			    Gmaj6/Ebass
I know she's got a big long shinny car.
Amaj6 			 Gmaj6/Ebass
I know she's famous and she's a star.

        D               F#m^		   Bm Bm#7 Bm7
BRI	But there's one thing that she can never do
		E             A7sus         A
	she'll never take the place of you

Amaj6 			    Gmaj6/Ebass
I like the good times and I like the bread.
Amaj6 			    Gmaj6/Ebass
but don't you worry it won't go to my head.

	D                 F#m		     Bm Bm#7 Bm7
BRI	Cause there's one thing that she can never do.
	        E7            A7sus     D   F#m7
	She'll never take the place of you.

		   Gmaj7
CHO		And though I'm very far away 
			D+9          Dmaj6
		you're always on my mind
		    Gmaj7
		In all the world a girl like you
		       D+9         Dmaj6
		Is very hard to find
		   Gmaj7
		So tell me that you want me back
		  A       D
		& I'll be cool. 
                  C-5     C   C-5     C     A
		I didn't realize that I was breaking 
                        F#m7  Gmaj7*  A
		all the rules

Amaj6 			    Gmaj6/Ebass
Of all the places that I've been to date.
Amaj6 			    Gmaj6/Ebass
Right there with you is where I want to stay.

BRI	Cause... CHO

Amaj6 			  Gmaj6/Ebass
I bet you think that I've got it made
Amaj6 			 Gmaj6/Ebass
And that my memories of you will fade

BRI	But...

||: D  F#m7*  Gmaj7*  A7sus A7 :||



Guitar Tab and Instruction - Home Page (free)


E-mail: sunspot6@hotmail.com


Downloading Help/Info


Disclaimer