Make your own free website on Tripod.com

Open Strings Riff 5

(Alternate Dowload Page)


    Here's an arrangement I did for the song: 
    Then You Can Tell Me Goodbye
    This is a real good song to improvise on.
    Try using the G Maj or G Pentatonic scale.
    Part 2 has some Amos Garrett like harmony
    bends.
 
RE-CLICK THE BELOW LINKS TO DOWNLOAD
Sound Clip Title Play/Download WAV Clip Play/Download MP3 Clip
Open Strings Riff 5 WAV (107 KB) MP3 (46 KB)
	
    Part 1:

     Gmaj7    Em        Am            D
E ||--------------------3---0-----------------------------------|
B ||----------------------5---3---0-----------------------------|
G ||-----0-------0--------------5---4---0-----------------------|
D ||---4---0---4---0------------------5---4---0-----------------|
A ||---------2-------2----------------------5-------------------|
E ||------------------------------------------------------------|

  Part 2:  

     Gmaj7    Em        Am            D
E ||------------------------------------------------------------|
B ||--13^--12--7^-------12^--12^--12--10------------------------|
G ||--14^--12--8^-------13^--13^--12--11------------------------|
D ||------------------------------------------------------------|
A ||------------------------------------------------------------|
E ||------------------------------------------------------------|
   


Guitar Tab and Instruction - Home Page (free)


E-mail: sunspot6@hotmail.com


Downloading Help/Info


Disclaimer