Make your own free website on Tripod.com

Open String Riffs 9

(Alternate Dowload Page)


    This is an open string riff combining 3
    of the above riffs into one big riff.

RE-CLICK THE BELOW LINKS TO DOWNLOAD
Sound Clip Title Play/Download WAV Clip Play/Download MP3 Clip
Open String Riff 9 WAV (58 KB) MP3 (25 KB)
	
    Key: G

E ||-----------0-----h-------------------|
B ||----h---0-8--0--/\-0-h---------------|
G ||---/\-7-----7--3-4--/\-0-h-----h-----|
D ||--8-9--------------4-5--/\-0--/-\-0--|
A ||------------------------4-5---1-2----|
E ||-----------------------------------3-|



E ||---------------------------0----7----|
B ||---------------------0-3-4---0-8-----|
G ||----------------0--3-----------------|
D ||-------H--0---0----------------------|
A ||---0--/\----7------------------------|
E ||-3---6-7-----------------------------|



E ||-----0-----------------------|
B ||--8\7----0-------------------|
G ||------7\5----0---------------|
D ||----------9\7-----0----------|
A ||---------------9\7----0------|
E ||-------------------8\7--3----|

   


Guitar Tab and Instruction - Home Page (free)


E-mail: sunspot6@hotmail.com


Downloading Help/Info


Disclaimer