Make your own free website on Tripod.com

Pete Anderson Riff 6

(Alternate Dowload Page)


    This is a lick off of the Working Class CD.
    The open strings give it a nice banjo sound.
    Works good in almost any bluegrass song.

RE-CLICK THE BELOW LINKS TO DOWNLOAD
Sound Clip Title Play/Download WAV Clip Play/Download MP3 Clip
Pete Anderson Riff 6 WAV (54 KB) MP3 (23 KB)
	
    Riff 6   Key: G

                P           P		           P           P                     
E ||------P----/\-----P----/\-----P--|-------P----/\-----P----/\----P---|
B ||-----/\---3-0----/\---3-0----/\--|------/\---1-0----/\---1-0---/\---|
G ||----4-0---------4-0---------4-0--|-----2-0---------2-0---------2-0--|
D ||-3/5----5-----5-----5-----5------|-1/3-----3-----3------3----3------|
A ||---------------------------------|----------------------------------|
E ||---------------------------------|----------------------------------|


   
                P           P                      H  P         P
E ||------P----/\-----P----/\-----P--|---------H---/\/\--------/-\-----P----------|
B ||-----/\---3-0----/\---3-0----/\--|---H----/-\--0-1-0---0--3-2-0---/-\---------|
G ||----4-0---------4-0---------4-0--|--/-\--0-2-3-------3-----------3-2-0-----0--|
D ||-3/5----5-----5-----5-----5------|-0-2-3-------------------------------3/5----|
A ||---------------------------------|--------------------------------------------|
E ||---------------------------------|--------------------------------------------|
   


Guitar Tab and Instruction - Home Page (free)


E-mail: sunspot6@hotmail.com


Downloading Help/Info


Disclaimer