Make your own free website on Tripod.com

Rockabilly Country Rhythm 11

(Alternate Dowload Page)


    Rockabilly surf type boogie.
    Here's a piece a put together with
    Maj6 and 9th chords between the
    phrases.   

RE-CLICK THE BELOW LINKS TO DOWNLOAD
Sound Clip Title Play/Download WAV Clip Play/Download MP3 Clip
Rockabilly Rhythm 11 WAV (184 KB) MP3 (79 KB)
	
    Key: E

    E  (2x)                Emaj6 E9     A                     Amaj6  A9
E ||-------------------------/9--7---||-------------------------/14--12---||
B ||-------------------------/9--7---||-------------------------/14--12---||
G ||-------------------------/9--7---||--------------0----------/14--12---||
D ||--------------0----------/9--6---||---------0-1-2-2-1-0-----/14--11---||
A ||---------0-1-2-2-1-0---------7---||--0-0-0-3-----------3^-0------12---||
E ||--0-0-0-3-----------3^-0---------||-----------------------------------||



    E                      Emaj6 E9    Bmaj6 B9       Amaj6  A9
E ||-------------------------/9--7---||----7----------/14----12----|
B ||-------------------------/9--7---||-8/9--7--------/14----12----|
G ||-------------------------/9--7---||-7/8--6--------/14----12----|
D ||--------------0----------/9--6---||-8/9--7--------/14----11----|
A ||---------0-1-2-2-1-0---------7---||------6---------------12----|
E ||--0-0-0-3-----------3^-0---------||----------------------------|



    E  (2x)                   E6+9
E ||---------------------------12---||
B ||---------------------------12---||
G ||---------------------------11---||
D ||--------------0------------11---||
A ||---------0-1-2-2-1-0-------11---||
E ||--0-0-0-3-----------3^-0---0----||
   


Guitar Tab and Instruction - Home Page (free)


E-mail: sunspot6@hotmail.com


Downloading Help/Info


Disclaimer