Make your own free website on Tripod.com

Country Rockabilly Rhythm 7

(Alternate Dowload Page)


    Here's a walking bass type rockabilly riff.

RE-CLICK THE BELOW LINKS TO DOWNLOAD
Sound Clip Title Play/Download WAV Clip Play/Download MP3 Clip
Rockabilly Rhythm 7 WAV (74 KB) MP3 (32 KB)
	
    Key: E

    E   2x                              A
E ||--------------------------------||---------------------------------|
B ||--------------------------------||---------------------------------|
G ||--------------------------------||---------------------------------|
D ||--------------------------------||-------0-1h2-1h2-2---------------|
A ||-------0-1h2-1h2-2--------------||--0-0-3-----3-----3-3--2-2-1-1---|
E ||--0-0-3-----3-----3-3--2-2-1-1--||---------------------------------|


    E      			        F7 E7
E ||--------------------------------||-----------|
B ||--------------------------------||--6--5-----|
G ||--------------------------------||--8--7-----|
D ||--------------------------------||--7--6-----|
A ||-------0-1h2-1h2-2--------------||--8--7-----|
E ||--0-0-3-----3-----3-3--2-2-1-1--||-----------|
   


Guitar Tab and Instruction - Home Page (free)


E-mail: sunspot6@hotmail.com


Downloading Help/Info


Disclaimer