Make your own free website on Tripod.com

Rockabilly Country Rhythm 8

(Alternate Dowload Page)


    Rockabilly walking bass riff.

RE-CLICK THE BELOW LINKS TO DOWNLOAD
Sound Clip Title Play/Download WAV Clip Play/Download MP3 Clip
Rockabilly Rhythm 8 WAV (111 KB) MP3 (48 KB)
	
    Key: E
           
    E                2x				        A
E ||---------------||---------------------------------||---------------------------------|
B ||---------------||---------------------------------||---------------------------------|
G ||---------------||---------------------------------||---------------------------------|
D ||---------------||---------------------------------||----------2-2-4-2-4/5-4/5-4-2----|
A ||---------------||----------2-2-4-2-4/5-4/5-4-2----||--0-0-3h4---------------------4--|
E ||--/0-/0-/0-/0--||--0-0-3h4---------------------4--||---------------------------------|



    E                		        B			       E
E ||---------------------------------||-----------------------------------------------|
B ||---------------------------------||-----------------------------------------------|
G ||---------------------------------||-----------------------------------------------|
D ||---------------------------------||----------------------------------2p0----------|
A ||----------2-2-4-2-4/5-4/5-4-2----||-5-5\4-4-2-2-4--1/2-2-0-0------------2p0-------|
E ||--0-0-3h4---------------------4--||-------------------------4-4-2-2-0------3^-0---|
   


Guitar Tab and Instruction - Home Page (free)


E-mail: sunspot6@hotmail.com


Downloading Help/Info


Disclaimer