Make your own free website on Tripod.com

Rockabilly Country Rhythm 9

(Alternate Dowload Page)


    Rockabilly rhythm with solo.
    Try the chords first, then the solo.
    Both the solo and chords are moveable 
    to any key.

RE-CLICK THE BELOW LINKS TO DOWNLOAD
Sound Clip Title Play/Download WAV Clip Play/Download MP3 Clip
Rockabilly Rhythm 9 WAV (86 KB) MP3 (37 KB)
	
    Key: G
               Gmaj6       C9   2x     Dmaj6                         G7
  
E ||--------||-3---6^-3----3--------||--13/14--13\12---9/10--9\8--------------|
B ||--------||-5---5^-3-3h5-5br-3---||--14/15--14\13--11/12-11\10----3--------|
G ||--------||-4------------5br-3---||--15/16--15\14--10/11-10\9-----3h4------|
D ||--------||-3-----------------5--||-------------------------------3--------|
A ||--------||-5--------------------||----------------------------------------|
E ||--0-1-2-||-3--------------------||----------------------------------------|


    chords:
  
    Gmaj6     C9   Dmaj6
E ||--3--------3-----10-------|
B ||--5--------3-----12-------|
G ||--4--------3-----11-------|
D ||--3--------2-----10-------|
A ||--5--------3-----12-------|
E ||--3--------------10-------|
   


Guitar Tab and Instruction - Home Page (free)


E-mail: sunspot6@hotmail.com


Downloading Help/Info


Disclaimer