Make your own free website on Tripod.com

Surfer Girl (Brian Wilson/Beach Boys)

(Alternate Dowload Page)

 
    Here's a fingerstyle arrangement I did 
    for the song: Surfer Girl - played 
    on my double bender tele.
  
RE-CLICK THE BELOW LINKS TO DOWNLOAD  
Sound Clip Title Play/Download WAV Clip Play/Download MP3 Clip
Surfer Girl WAV (447 KB) MP3 (224 KB)
	
d=down with pick or use thumb
m=middle finger
r=ring finger
p=pinky          

^= full 2 fret bend
R= release the bend
/=slide up
\=slide down


    Key: D Major

    Intro
    
       Dmaj6        Dmaj7       Bm7           F#m          G         Em7       A
E ||---------------------5------5------5------5-----5------------------------------------|
B ||--10^full R-10--7-------0-----3------3------2-----2----7h8---8---7h8---8---9h10------|
G ||--11--------------6-------------2------2------2-----2------7--7------7--7--9^ full R-|
D ||--12--------12--7----7------4------4------2-----2------7h9---9---7h9---9---9h11------|
A ||-------------------------------------------------------------------------------------|
E ||-------------------------------------------------------------------------------------|
                         p      p      p      p     p      
      r          r  r        r     r      r     r     r    r     r   r     r   r
      m		      m             m      m      m     m      m  m      m  m  m
      d          d  d    d      d      d      d     d      d     d   d     d   d


    VERSE

    D                 Bm  G        A             Dmaj7        D7
E ||-------------0h2-----------0------------------------5------2------0--------|
B ||-----------3----3--3---0-----0--0h2---------------2---2------1------1------|
G ||---------2-----------2---0----------2-----2-----2-------2------2------2----|
D ||-------0--------------------------------2-----0------------0------0--------|
A ||-0-2-4-------------2------------0-----0------------------------------------|
E ||-----------------------3---3-----------------------------------------------|
                 p    p    p   p    p                   p      p     p
               r    r    r   r   r      r     r       r   r      r      r
             m                              m       m       m      m      m
     d d d d          d    d   d    d     d       d            d     d



    G               Gm           D          Bm   G        A
E ||----------7-----6-----6------------0h2-----------0--------------------|
B ||--3---------8-----8-----8--------3----3--3---0-----0--0h2-------------|
G ||----0---------7-----7-----7----2-----------2---0----------2-----2-----|
D ||------0---0-----0-----0------0--------------------------------2-------|
A ||-----------------------------------------2------------0-----0---------|
E ||--3------------------------------------------3---3--------------------|
      p       p     p     p            p     p   p   p    p          
        r       r     r     r        r    r    r   r   r      r     r
          m       m    m      m    m                              m    
      d       d     d     d       d          d   d   d    d     d           



      D           Bm          G              A
E ||--------0h2-----------------------------------------------------------|
B ||------3----3--3-----3------3-----3--3----2--------2-------------------|
G ||----2-----------2-----2----2h4---4--4----4--2---2---------------------|
D ||--0---------------4-----4------0--------------2-----------------------|
A ||--------------2-----2--------------------0----------------------------|
E ||---------------------------3-------3----------------------------------|
            p     p     p
          r    r    r     r    r     r  r    r        r
        m             m     m  m     m  m    m  m   m          
      d           d     d      d   d   d     d    d



      D           Gadd9       D     Dmaj7  D7  
E ||--------0h2---------------------------------0--------------------------|
B ||------3----3--------3---------3-----2-----1---1------------------------|
G ||----2-------------2--2p0----2-----2-----2-------2----------------------|
D ||--0-------------0---------0-----0-----0--------------------------------|
A ||-----------------------------------------------------------------------|
E ||--------------3--------------------------------------------------------|
            p           p                       p
          r    r      r   r       r     r     r   r
        m           m            m    m     m       m
      d           d           d      d    d



    CHORUS 
    
    G           A         D           G       Aadd9    D       D7
E ||-------------------------------------------------------------0---------|
B ||--------0h3-0h2--0---------3-----3------0----------3-------1--3-1-0----|
G ||------0--------0---0----2h4-2---2-----0---2h4---2--2h4--0h2------------|
D ||----0-----------------0------0h4----0-----2-----2--0---4---------------|
A ||------------0----0----------------------------0------------------------|
E ||--3-------------------------------3------------------------------------|
            p   p    p                      p           
          r        r   r       r     r    r   r     r  r         r
        m                   m   m   m   m     m     m  m    m  m  m m m
      d         d    d    d      d    d           d    d   d  d


    G           A         D             E
E ||-------------------------------------0-----2-----0-----2(hold)--|
B ||--------0h3-0h2--0---------3-----3-----0-----0-----0-----0------|
G ||------0--------0---0----2h4-2---2--------1-----1-----1-----1----|
D ||----0-----------------0------0h4--------------------------------|
A ||------------0----0----------------------------------------------|
E ||--3----------------------------------0-----0-----0-----0--------|
            p  p     p                   p     p     p     p
          r        r   r       r     r     r     r     r     r
        m                   m   m   m        m     m     m     m
      d        d     d    d      d       d     d     d     d

 
     Amaj6         Bb(b9)      A7
E ||--2-----0-------------------------------------------------------|
B ||----2-----2----0-----0------2-----------------------------------|
G ||------2-----2----3-----3----0^full slow R-----------------------|
D ||-------------------3-----3--2-----------------------------------|
A ||--0-----0------1-----1------0-----------------------------------|
E ||----------------------------------------------------------------|
      p     p      p     p      p
        r     r      r     r    r
          m     m      m     m  m
      d     d      d     d      d          


                                   Dmaj7
E ||-------------------------------2---------------------------------|
B ||------10------8-----7-----5\---2----^full------------------------|
G ||-------------------------------2^full----------------------------|
D ||--2/11---11\9---9\7---7\5------4---------------------------------|
A ||-------------------------------5---------------------------------|
E ||-------------------------------0--------drop e to low A----------|
                                            down 7 frets from low E
           r      r     r     r

      d       d     d     d        full strum
   


Guitar Tab and Instruction - Home Page (free)


E-mail: sunspot6@hotmail.com


Downloading Help/Info


Disclaimer